peperonity Mobile Community
Welcome, guest. You are not logged in.
Log in or join for free!
 
Stay logged in
Forgot login details?

Login
Stay logged in

For free!
Get started!

¤¤ LYRICSW/CHORDS ¤¤ | ultim8kicker


¤¤ LYRICSW/CHORDS ¤¤
Get Me
Mymp


You know that i will always be just fine
bm f#m g
Im okay im alright im a super

Refrain:
Em bm
But no really and i am sorry
g a
Cause ur not here lying next to me


Chorus:
d
C'mon and get me, get me, get me
a
Baby im yours, cmon and get me
bm
You'll never be lonely, lonely, lonely
g d
So baby cmon and get me


Verse 2:

d a
You know that i have always dream of u

bm f#m g
Only u, in the day, in the night

a
Every walking hour of my life Pinoy Ako
Orange And Lemons

Pinoy ako
By: orange and lemons
Tabbed by: benjie…

Intro: a-d (4x)

Stanza:

D-f#m-em-gm
Lahat tayo mayroon pagkakaiba madalang makikita na
Iba't ibang kagustuhan ngunit isang patutunguhan
Gabay at pagmamahal ang hanap ko
Pagbibigay ng halaga sa iyo
Nais mong ipakilala kung sino ka man talaga?


Chorus:

D-f#m-em-gm
Pinoy, ikaw pinoy
Ipakita sa mundo
Kung ano ang kaya mo
Ibang-iba pinoy
Wag kang matatakot
Ipagmalaki mo ,pinoy ako
Pinoy tayo

Stanza:

D-f#m-em-gm
Ipakita mo ang tunay at kung sino ka?
Mayroon masasama at maganda
Wala naman perpekto
Basta magpakatotoo oohh...
Gabay at pagmamahal ang hanap mo
Pagbibigay ng halaga sa iyo
Nais mong ipakilala kung sino ka man talaga?



Bridge:

A (one strum per line w/ overdrive)
Talagang ganyan ang buhay
Dapat ka nang masanay
Wala rin mangyayari
Kung laging nakikibagay
Ipakilala ang iyong sarili
Ano man sa iyo ang mangyari
Ang lagi mong iisipin
Kayang kayang gawin


Outro: a-d
Tell Me Where It Hurts
M.y.m.p

title: tell me where it hurts
artist: m.y.m.p
tabbed by: harvin y.



Intro:
|-------------------------------------------|
|--8s10-10-10-10-10-8-10-10s12-12---|
|-8-----------------------------------------|
|-------------------------------------------|
|-------------------------------------------|
|-------------------------------------------|

|------------------10----------------------|
|--8s10-10-10-8----8-10s8-------------|
|-8---------------------------10----------|
|------------------------------------------|
|------------------------------------------|
|------------------------------------------|

solo:
|--7s9-9999-9-7-7s9-9h11-9-7-------|
|-7----------7---7-----------------------|
|-----------------------------------------|
|-----------------------------------------|
|-----------------------------------------|
|-----------------------------------------|

|----------------------------------------|
|-7--9---5--7--9--5--7777-9--5-------|
|-9--11--7--9-11-7--9999-11-7------|
|----------------------------------------|
|----------------------------------------|
|----------------------------------------|

|----------------------------------------|
|------------------------------6---------|
|--3s5--55--5--3---3s5-7-9-----------|
|-3---------3------3--------------------|
|----------------------------------------|
|----------------------------------------| Stay
cueshe

Stay tab by cuesé


Title: stay
Artist: cueshe'
Tabbed by: arnie28



Intro: also after 1st chorus
Rhtym:
|-------------------------------------------------------------------|
|-------------------0--0--0--0--0--0--------------------------------|
|--1--1--1--1--1----2--2--2--2--2--2---1--1--1--1--1--1--1--1--1--1-|
|--2--2--2--2--2----2--2--2--2--2--2---2--2--2--2--2--2--2--2--2--2-| 2x
|--2--2--2--2--2-----------------------2--2--2--2--2--2--2--2--2--2-|
|-------------------------------------------------------------------|


(lead)
E|------------------------------------------------------------------|
B|--------------------—---------------------------------------------|
G|------------------------------------------------------------------|
D|--4-6-6-4-6-4-6-6-4-6-4-6-6----6-7-7-6-7-6-7-7-6-7-6-7-9----------|
A|------------------------------------------------------------------|
E|------------------------------------------------------------------|


E|------------------------------------------------------------------|
B|--------------------—---------------------------------------------|
G|------------------------------------------------------------------|
D|--4-6-6-4-6-4-6-6-4-6-4-6-6-4-2-----------------------------------|
A|------------------------------------------------------------------|
E|------------------------------------------------------------------|

E =022100
A5 =002200 or 577xxx
B =024440 or 024400
C#m=046650
D =057770 or 057700
Bm =024430
C =035550 or o35500

Stay
[ cueshe ]
E
I believe
A5 e
We shouldnt let the moment pass us by
E
Life's too short
A5 e
We shouldnt wait for the water to run dry
B
Think about it
c#m d
Cause we only have one shot at destiny

All im asking
e a5(1 stroke lng)
Could it possibly be you and me?

d
So if you'd still go, i'll understand
Bm a5
Would you give me something just to hold on to?
c#m d
And if you'll stay, ill hold your hand
Bm e
Cause im truly, madly, crazily in love with you

Rhtym:
|-------------------------------------------------------------------|
|-------------------0--0--0--0--0--0--------------------------------|
|--1--1--1--1--1----2--2--2--2--2--2---1--1--1--1--1--1--1--1--1--1-|
|--2--2--2--2--2----2--2--2--2--2--2---2--2--2--2--2--2--2--2--2--2-|
|--2--2--2--2--2-----------------------2--2--2--2--2--2--2--2--2--2-|
|-------------------------------------------------------------------|


(lead)
E|------------------------------------------------------------------|
B|--------------------—---------------------------------------------|
G|------------------------------------------------------------------|
D|--4-6-6-4-6-4-6-6-4-6-4-6-6----6-7-7-6-7-6-7-7-6-7-6-7-9----------|
A|------------------------------------------------------------------|
E|------------------------------------------------------------------|


E|------------------------------------------------------------------|
B|--------------------—---------------------------------------------|
G|------------------------------------------------------------------|
D|--4-6-6-4-6-4-6-6-4-6-4-6-6-4-2-----------------------------------|
A|------------------------------------------------------------------|
E|------------------------------------------------------------------|


E
Time has come
a5 e
For us to go our separate ways
E
God forbid
A5 e
But my mind is going crazy today

B
I feel so cold
c#m
Feel so numb
d
Im having nightmares but im awake

Help me lord
E
Fight this loneliness
a5(1 stroke lng)
Take this pain away

d
So if you'd still go, i'll understand
Bm a5
Would you give me something just to hold on to?
c#m d
And if you'll stay, ill hold your hand
Bm (c-d-e 2x)
Cause im truly, madly, crazily in love with you


d
So if you'd still go, i'll understand
bm a5
Would you give me something just to hold on to?
c#m d
And if you'll stay, ill hold your hand
bm a5
Cause im truly, madly, crazily in love with you
c#m d
Now that you're gone, im all alone
bm a5
Im still hoping that you would come back home
c#m d
Dont care how long, but im willing to wait
bm(1 stroke)
Cause im truly, madly, crazily in love with you

the Day You Said Good Night By Hale
Hale


Intro: e-b-a or a2-

Verse:
e
Take me as you are
b a or a2
Push me off the road
c#m b a or a2
The sadness, i need this time to be with you

(sa verse eto yung chord pattern... bale 2x nyo gagawin ung pattern)

Pre-chorus:
c#m b
And i do reside in your light
f#m a b
Put out the fire with me and find
c#m b
Yeah you lose the side of your circles
f#m b
That's what i'll do if we say goodbye

(take note na yung mga chords dito sa pre-chorus hindi broken chords. mamaya ko na
Yung ginawa kong finger placement)

Chorus:
e b
To be is all i got to be
f#m
And all that i see
a b
And all that i need this time
e b
To be the life you gave me
f#m g#m slide to a
The day you said goodnight

Bridge:
C#m b a or a2
if you could only know me like your prayers at night
C#m b f#m b
then everything between you and me will be alright

(after nito yung chorus ulet pero mahina lang dapat yung strumming kasi parang solo ito
Champ, pakinggan nyo yung song para makuha nyo yung strumming kasi may mga break yung
Strum)

The next part is yung verse na "she's already taken..." same chords lang cya sa chorus.
Yung last line eto...

E b f#m a
the day you said goodnight

Eto yung chord patterns na medyo ginawan ko ng variation

TELL ME WHERE ITS HURT G
Why is that sad look in your eyes
Why are you crying?

C9
Tell me now, tell me now
Tell me, why you're feelin' this way

G
I hate to see you so down, oh baby!

C9 em5
Is it your heart
Oh, that's breakin' all in pieces

C9 em5
Makin' you cry

Ebm7
Makin' you feel blue
Is there anything that i can do

Chorus:
g
Why don't you tell me where it hurts now, baby
em5
And i'll do my best to make it better
cm9 d5
Yes, i'll do my best to make the tears all go away
g
Just tell me where it hurts
Now, tell me

em5
And i love you with a love so tender
cm9
Oh and if you let me stay
d5
I'll love all of the hurt away


Verse 2:

G
Where are all those tears coming from
Why are they falling?

C9
Somebody, somebody, somebody leave your heart in the cold

G
You just need somebody to hold on, baby

c9 em5
(give me a chance)


To put back all the pieces

C9 em5
Take hold of your heart

ebm7
Make it just like new
There's so many things that i can do

(repeat chorus)

C9 em5
Is it your heart
Oh, that's breakin' all in pieces


C9 em5
Makin' you cry

Ebm7
Makin' you feel blue
Is there anything that i can do.......


Chorus:
g
Why don't ...
Next part ►


This page:




Help/FAQ | Terms | Imprint
Home People Pictures Videos Sites Blogs Chat
Top