peperonity.com
Welcome, guest. You are not logged in.
Log in or join for free!
 
Forgot login details?

For free!
Get started!

Text page


ditzmayri.peperonity.com

Guitar tabs

Chorus
strum chords
|-0--1-|-3-3--1--0-|
|-1--1-|-5-3--1--1-|
|-2--2-|-5-4--2--2-|
|-2--3-|-3-5--3--0-|
|-------|----3--1----|
l------0-1-------l
l--------------0-2-l
l---2------------l
l-0-------3--------l
l---------1---------l

solo

e|-----9-----------9
b|-10---9\7--10--
G|------------


This page:




Help/FAQ | Terms | Imprint
Home People Pictures Videos Sites Blogs Chat
Top
.