peperonity Mobile Community
Welcome, guest. You are not logged in.
Log in or join for free!
 
Stay logged in
Forgot login details?

Login
Stay logged in

For free!
Get started!

*GUITAR TABS* | prabs


*GUITAR TABS*
FOR All GUITAR FREAKS *PLS NOTE* since this is doc file,it can be best viewed thro a comp.
aguitar
ENGLISH CHORDS

She´s always a woman to me
Billy Joel

A7 D A7 D
1) She can kill with a smile, ...
G Bm G
She can ruin your ...
A7 D A7 F#
And she only reveals ...
Bm G A7 D
She hides like a child, ...

Bm E7 A F#m
CHORUS : Ohhh... she takes ....
D G Em A7 D
She can wait if she ....
Dm G7 C Am
Ohhh... and she ...
Bb E E7 A
and she never gives ...


BACKSTREET BOYS
AS LONG AS YOU LOVE ME

Am - Fmaj7 - C - G

Throughout this song!

BACKSTREET BOYS RULE!!!!!!!!!!!!!!!!!!!!!!!!!

Date: Sun, 25 Feb 2001 15:41:03 -0500

Subject: b/backstreet_boys/as_long_as_you_love_me.crd

Band Name: Backstreet Boys
Song: As Long As You Love Me

Comments: [Here is the solo for the song, its sounds just like the real song.
Listen to the song for the timing]

| |
E|----------------------------------------------------
B|-5-5-5-4-2-4~~~---4-5-7-----------------------------
G|------------------------4~~---1-1/4-6-8-6-4-3-4~~~--
D|----------------------------------------------------
A|----------------------------------------------------
D|----------------------------------------------------




Every Breath You Take -

NOTE: Tune the 6th string up 2 frets to F#. This string is struck only on
the ´sort-of F#m´ chord

INTRO: Asus2 F#m Dsus2 Esus2 Asus2

Asus2 F#m
Every breath you take, every move you make
Dsus2 Esus2
Every bond you break, every step you take
F#m
I´ll be watching you.

Every single day, every word you say.
Every game you play, every night you stay
I´ll be watching you.

D C
O can´t you see You belong to me
Bsus2 E
How my poor heart aches, with every step you take

Every move you make, every vow you break
Every smile you fake, claim you stake
I´ll be watching you.

F G
Since you´ve gone I´ve been lost without a trace
F
I dream at night I can only see your face
G
I look around but it´s you I can´t replace
F
I fel so cold and I long for your embrace
Asus2
I keep crying baby baby please

[Play 2 verses without words]

O can´t you see You belong to me
How my poor heart aches, with every step you take

Every move you make, every vow you break
Every smile you fake, claim you stake
I´ll be watching you.

[No words A, C#m]
Every move you make, every step you take
I´ll be watching you.

[Fade out with] I´ll be watching you
(verses 1&2 in background) I´ll be watching you
(verses 3&2) I´ll be watching you
[Repeat] I´ll be watching you

VERSES

Asus2 A F#m
e-----------------------------------------------------------------
B------0---2-0---0-----0---2-0---0--------------------------------
G--------------2---------2-----2----------------------------------
D----2---2-----------2-----------------6---7-6-4-6-----6---7-6-4-6
A--0---------------0-----------------4---4-----------4---4--------
F#---------------------------------0---------------0--------------
^^

Dsus2 E F#m
------------------------------------------------------------------
------------------------------------------------------------------
-----5---------------7---------------------7-6-4-6---------7-6-4-6
---------7---------------9-------------6---------------6----------
---7---7---7---7---9---9---9---9-----4---4-----------4---4--------
-5-----------5---7-----------7-----0---------------0--------------

Asus2 A F#m
e-----------------------------------------------------------------
B------0---2-0---0-----0---2-0---0--------------------------------
G--------------2---------2-----2----------------------------------
D----2---2-----------2-----------------6---7-6-4-6-----6---7-6-4-6

A--0---------------0-----------------4---4-----------4---4--------
F#---------------------------------0---------------0--------------

Dsus2 E Asus2 A
------------------------------------------------------------------
---------------------------------------0---2-0---0-----0---2-0---0
-----5---------------7-------------------------2---------------2--
---------7---------------9-----------2---2-----------2---2--------
---7---7---7---7---9---9---9---9---0---------------0--------------
-5-----------5---7-----------7------------------------------------

CHORUS
Dsus2 Csus2 Asus2 A
------------------------------------------------------------------
---------------------------------------0---2-0---0-----0---2-0---0
-----5---------------3-------------------------2---------------2--
---------7---------------5-----------2---2-----------2---2--------
---7---7---7---7---5---5---5---5---0---------------0--------------
-5-----------5---3-----------3------------------------------------

Bsus2 Esus2
------------------------------------------------------------------
------------------------------------------------------------------
-----2---4-2---2-----2---4-2---2-----7---------------7------------
-------------4---------------4-----------9---------------9--------
---4---4-----------4---4-----------9---9---9---9---9---9---9---9--
-2---------------2---------------7-----------7---7-----------7----





Here is I Have A Dream by Abba from the Voulez-Vous album. You can do this
song the barre way (which I will post) or with a capo on the 1st fret.

Intro: Bb F7 Bb

Verse: Bb I ..(F7), a ..(Bb) to ..
(F7) with .. (Bb). if ..(F7) of ..(Bb),
you ..(F7) even ..(Bb). I ..
(F7), something ..(Eb) everything ..(Bb), I ..
when ..(Eb) is ..(Bb). I´ll ..
(F7), I ..(Bb).

(repeat)

F7: 131211
Eb: xx1343
Bb: x13331





Mama-mia - transcribed by Gary Chapman
========

Intro:

E -------5---5---5---5---6---6---6---6---5---5---5---5---6---6---6---6
B -----------------------------------------------------------------
G --7---7---7---7---7---7---7---7---7---7---7---7---7---7---7---7--
D -----------------------------------------------------------------
A -----------------------------------------------------------------
E -----------------------------------------------------------------

Play above twice. On second pass, see below.

E ------------------------------------------------------------------
B -------------7-------------7-5-7-575---------7-------------7-5-7-575---
G -----4-7--------------------------7---4-7-------------------------7-
D --7-------------------------------7-------------------------------
A ------------------------------------------------------------------
E ------------------------------------------------------------------

--- incidental stuff ---

Lick #1: Lick #2

E ----------- -----------
B --7-5^5/10- --7-5^7/11-
G ----------- -----------
D ----------- -----------
A ----------- -----------
E ----------- -----------

Lick #3: slow vibrato Lick #4 v---- Bend note, strike it, release
E ---------------------------- ---(14)12------------
B --3--5--7--7(8)7(8)7(8)7(8)- ----------15-14-12---
G ---------------------------- ---------------------
D ---------------------------- ---------------------
A ---------------------------- ---------------------
E ---------------------------- ---------------------

Dmin#5:

E -2-
B -3-
G -3-
D -0-
A ---
E ---

--- end incidental stuff ---

Verse 1:

D A D A G
I´ve ...

D A D A G
So I ....


D (lick #1) Dmin#5
Look ...

D (lick #2) Dmin#5 G
I don´t ...

A
There´s ...

G D A
Just ...,

G D A
One ...

Chorus:

D
Mama ..

C G D
My ..

D
Mama ..

C G D
My ...

D (Lick #3) A
Yes, ..

Bmin F#min
Blue ...

C G Emin A
Why ....

D (Lick #4) Bmin
Mama ..

C G Emin A
My ..

Verse 2:

Chorus:





QUIT PLAYING GAMES ( with my heart )
From the album
Backstreet Boys



INTRO A D G D

A D G D
Even in my heart I feel ...
A D G D
deep within my soul I see , ...
A D
Sometime´s I wish I ...
G D
Impossible as ...
A
but I wish ...
D G
so bad , b...

CHORUS:
A
Quit playing with my ...
D
with my heart ( ...
G
with my ....
A
with ...
A
Is should have ....

( you just continue this one till the bridge )

Bm G D Bm
Baby , baby , the ....
G D
can´t keep on ...
Bm G D
oh baby baby , ....
G D
let´s stop ...

repeat intro

then fade




*Capo on First Fret**

...
Next part ►


This page:




Help/FAQ | Terms | Imprint
Home People Pictures Videos Sites Blogs Chat
Top